I STILL LOVE YOU

verse:

---------------------------------------------------
------0------------0------------0------------0-----
----0---0--------0---0--------0---0--------0---0---
--4-------4----4-------4----4-------4----4-------4-
-------------3------------4------------3-----------
0--------------------------------------------------repeat x4


-----------
------0----
----0---0--
--4-------4
-----------
0----------


Bridge:

------0------------0--------------------------------
--------0------------0------------------------------
----0-----0------0-----0----------------------------
--2------------4------------------------------------
0------------2--------------------------------------repeat 2 or 3
----------------------------------------------------times.i'm not 
                                                    sure which...


-------------------------
-------------------------
-------------------------
4-4-4-4-4-4-5-5-5-5-5-5--
2-2-2-2-2-2-3-3-3-3-3-3--
------------------------- repeat a couple of times...

--------------------
--------------------
--------------------
4-4-4-2-2-2---------
2-2-2-0-0-0--5-5-5-3
-------------3-3-3-1

Chorus:

-----
-----
-----
2-9-5
2-7-3
-----chorus goes...2          9          5
                   2  i still 7 love you 3  

Thats all I know.i hope its right...I like this song so much because
of its eerie rhythm and how simple it is to play.hope you enjoy it too





Make your own free website on Tripod.com