BACK IN BLACK

x-x-x-x-----------------------3-0-------------
x-x-x-x---------------------------3-0---------
x-x-x-x-----------7-7-7---------------2-x-0---
x-x-x-x-x-x-x-x-2-7-7-7-7-7-7-----------------
x-x-x-x-x-x-x-x-2-5-5-5-7-7-7-----------------
x-x-x-x-x-x-x-x-0-------5-5-5-----------------

-----------------------------
-----------------------------
--7-7-7----------------------
2-7-7-7-7-7-7----------------
2-5-5-5-7-7-7-2---2---2---2--
0-------5-5-5---4---5---6---7

This is the riff that is played all through out the intro and verse.
I don't know the chorus yet.If anyone does e-mail me.thanks





Make your own free website on Tripod.com